ISO-10303-21;
HEADER;
/* Generated by software containing ST-Developer
 * from STEP Tools, Inc. (www.steptools.com) 
 */

FILE_DESCRIPTION(
/* description */ (''),
/* implementation_level */ '2;1');

FILE_NAME(
/* name */ 'FCR159778.stp',
/* time_stamp */ '2025-10-02T09:42:51+01:00',
/* author */ ('TOttley'),
/* organization */ (''),
/* preprocessor_version */ 'ST-DEVELOPER v20',
/* originating_system */ 'Autodesk Inventor 2025',
/* authorisation */ '');

FILE_SCHEMA (('AUTOMOTIVE_DESIGN { 1 0 10303 214 3 1 1 }'));
ENDSEC;

DATA;
#10=MECHANICAL_DESIGN_GEOMETRIC_PRESENTATION_REPRESENTATION('',(#126,#127,
#128,#129,#130,#131,#132,#133,#134,#135,#136),#274);
#11=SHAPE_REPRESENTATION_RELATIONSHIP('SRR','None',#281,#12);
#12=ADVANCED_BREP_SHAPE_REPRESENTATION('',(#13),#273);
#13=MANIFOLD_SOLID_BREP('Solid1',#147);
#14=PLANE('',#178);
#15=PLANE('',#182);
#16=PLANE('',#188);
#17=FACE_BOUND('',#38,.T.);
#18=FACE_BOUND('',#41,.T.);
#19=FACE_BOUND('',#44,.T.);
#20=SPHERICAL_SURFACE('',#174,10.);
#21=CYLINDRICAL_SURFACE('',#172,1.15);
#22=CYLINDRICAL_SURFACE('',#176,3.1);
#23=CYLINDRICAL_SURFACE('',#180,2.25);
#24=CYLINDRICAL_SURFACE('',#184,2.05);
#25=FACE_OUTER_BOUND('',#35,.T.);
#26=FACE_OUTER_BOUND('',#36,.T.);
#27=FACE_OUTER_BOUND('',#37,.T.);
#28=FACE_OUTER_BOUND('',#39,.T.);
#29=FACE_OUTER_BOUND('',#40,.T.);
#30=FACE_OUTER_BOUND('',#42,.T.);
#31=FACE_OUTER_BOUND('',#43,.T.);
#32=FACE_OUTER_BOUND('',#45,.T.);
#33=FACE_OUTER_BOUND('',#46,.T.);
#34=FACE_OUTER_BOUND('',#47,.T.);
#35=EDGE_LOOP('',(#94,#95,#96));
#36=EDGE_LOOP('',(#97,#98,#99,#100));
#37=EDGE_LOOP('',(#101));
#38=EDGE_LOOP('',(#102));
#39=EDGE_LOOP('',(#103,#104,#105,#106));
#40=EDGE_LOOP('',(#107));
#41=EDGE_LOOP('',(#108));
#42=EDGE_LOOP('',(#109,#110,#111,#112));
#43=EDGE_LOOP('',(#113));
#44=EDGE_LOOP('',(#114));
#45=EDGE_LOOP('',(#115,#116,#117,#118));
#46=EDGE_LOOP('',(#119,#120,#121,#122));
#47=EDGE_LOOP('',(#123));
#48=CIRCLE('',#171,1.15);
#49=CIRCLE('',#173,1.15);
#50=CIRCLE('',#175,3.1);
#51=CIRCLE('',#177,3.1);
#52=CIRCLE('',#179,2.25);
#53=CIRCLE('',#181,2.25);
#54=CIRCLE('',#183,2.05);
#55=CIRCLE('',#185,2.05);
#56=CIRCLE('',#187,1.5);
#57=LINE('',#239,#63);
#58=LINE('',#243,#64);
#59=LINE('',#251,#65);
#60=LINE('',#258,#66);
#61=LINE('',#265,#67);
#62=LINE('',#269,#68);
#63=VECTOR('',#193,0.575);
#64=VECTOR('',#198,1.15);
#65=VECTOR('',#209,3.1);
#66=VECTOR('',#218,2.25);
#67=VECTOR('',#227,2.05);
#68=VECTOR('',#232,1.775);
#69=VERTEX_POINT('',#237);
#70=VERTEX_POINT('',#238);
#71=VERTEX_POINT('',#242);
#72=VERTEX_POINT('',#246);
#73=VERTEX_POINT('',#249);
#74=VERTEX_POINT('',#253);
#75=VERTEX_POINT('',#256);
#76=VERTEX_POINT('',#260);
#77=VERTEX_POINT('',#263);
#78=VERTEX_POINT('',#267);
#79=EDGE_CURVE('',#69,#70,#57,.T.);
#80=EDGE_CURVE('',#70,#70,#48,.T.);
#81=EDGE_CURVE('',#70,#71,#58,.T.);
#82=EDGE_CURVE('',#71,#71,#49,.T.);
#83=EDGE_CURVE('',#72,#72,#50,.T.);
#84=EDGE_CURVE('',#73,#73,#51,.T.);
#85=EDGE_CURVE('',#73,#72,#59,.T.);
#86=EDGE_CURVE('',#74,#74,#52,.T.);
#87=EDGE_CURVE('',#75,#75,#53,.T.);
#88=EDGE_CURVE('',#75,#74,#60,.T.);
#89=EDGE_CURVE('',#76,#76,#54,.T.);
#90=EDGE_CURVE('',#77,#77,#55,.T.);
#91=EDGE_CURVE('',#77,#76,#61,.T.);
#92=EDGE_CURVE('',#78,#78,#56,.T.);
#93=EDGE_CURVE('',#78,#77,#62,.T.);
#94=ORIENTED_EDGE('',*,*,#79,.T.);
#95=ORIENTED_EDGE('',*,*,#80,.F.);
#96=ORIENTED_EDGE('',*,*,#79,.F.);
#97=ORIENTED_EDGE('',*,*,#80,.T.);
#98=ORIENTED_EDGE('',*,*,#81,.T.);
#99=ORIENTED_EDGE('',*,*,#82,.F.);
#100=ORIENTED_EDGE('',*,*,#81,.F.);
#101=ORIENTED_EDGE('',*,*,#83,.F.);
#102=ORIENTED_EDGE('',*,*,#82,.T.);
#103=ORIENTED_EDGE('',*,*,#84,.F.);
#104=ORIENTED_EDGE('',*,*,#85,.T.);
#105=ORIENTED_EDGE('',*,*,#83,.T.);
#106=ORIENTED_EDGE('',*,*,#85,.F.);
#107=ORIENTED_EDGE('',*,*,#84,.T.);
#108=ORIENTED_EDGE('',*,*,#86,.F.);
#109=ORIENTED_EDGE('',*,*,#87,.F.);
#110=ORIENTED_EDGE('',*,*,#88,.T.);
#111=ORIENTED_EDGE('',*,*,#86,.T.);
#112=ORIENTED_EDGE('',*,*,#88,.F.);
#113=ORIENTED_EDGE('',*,*,#87,.T.);
#114=ORIENTED_EDGE('',*,*,#89,.F.);
#115=ORIENTED_EDGE('',*,*,#90,.F.);
#116=ORIENTED_EDGE('',*,*,#91,.T.);
#117=ORIENTED_EDGE('',*,*,#89,.T.);
#118=ORIENTED_EDGE('',*,*,#91,.F.);
#119=ORIENTED_EDGE('',*,*,#92,.F.);
#120=ORIENTED_EDGE('',*,*,#93,.T.);
#121=ORIENTED_EDGE('',*,*,#90,.T.);
#122=ORIENTED_EDGE('',*,*,#93,.F.);
#123=ORIENTED_EDGE('',*,*,#92,.T.);
#124=CONICAL_SURFACE('',#170,0.575,0.785398163397449);
#125=CONICAL_SURFACE('',#186,1.775,0.374333616007583);
#126=STYLED_ITEM('',(#291),#137);
#127=STYLED_ITEM('',(#291),#138);
#128=STYLED_ITEM('',(#291),#139);
#129=STYLED_ITEM('',(#291),#140);
#130=STYLED_ITEM('',(#291),#141);
#131=STYLED_ITEM('',(#291),#142);
#132=STYLED_ITEM('',(#291),#143);
#133=STYLED_ITEM('',(#291),#144);
#134=STYLED_ITEM('',(#291),#145);
#135=STYLED_ITEM('',(#291),#146);
#136=STYLED_ITEM('',(#290),#13);
#137=ADVANCED_FACE('',(#25),#124,.F.);
#138=ADVANCED_FACE('',(#26),#21,.F.);
#139=ADVANCED_FACE('',(#27,#17),#20,.T.);
#140=ADVANCED_FACE('',(#28),#22,.T.);
#141=ADVANCED_FACE('',(#29,#18),#14,.T.);
#142=ADVANCED_FACE('',(#30),#23,.T.);
#143=ADVANCED_FACE('',(#31,#19),#15,.T.);
#144=ADVANCED_FACE('',(#32),#24,.T.);
#145=ADVANCED_FACE('',(#33),#125,.T.);
#146=ADVANCED_FACE('',(#34),#16,.T.);
#147=CLOSED_SHELL('',(#137,#138,#139,#140,#141,#142,#143,#144,#145,#146));
#148=DERIVED_UNIT_ELEMENT(#151,1.);
#149=DERIVED_UNIT_ELEMENT(#276,-3.);
#150=DIMENSIONAL_EXPONENTS(0.,1.,0.,0.,0.,0.,0.);
#151=(
CONVERSION_BASED_UNIT('gram',#153)
MASS_UNIT()
NAMED_UNIT(#150)
);
#152=(
MASS_UNIT()
NAMED_UNIT(*)
SI_UNIT(.KILO.,.GRAM.)
);
#153=MASS_MEASURE_WITH_UNIT(MASS_MEASURE(0.001),#152);
#154=DERIVED_UNIT((#148,#149));
#155=MEASURE_REPRESENTATION_ITEM('density measure',
POSITIVE_RATIO_MEASURE(1.),#154);
#156=PROPERTY_DEFINITION_REPRESENTATION(#161,#158);
#157=PROPERTY_DEFINITION_REPRESENTATION(#162,#159);
#158=REPRESENTATION('material name',(#160),#273);
#159=REPRESENTATION('density',(#155),#273);
#160=DESCRIPTIVE_REPRESENTATION_ITEM('Generic','Generic');
#161=PROPERTY_DEFINITION('material property','material name',#283);
#162=PROPERTY_DEFINITION('material property','density of part',#283);
#163=DATE_TIME_ROLE('creation_date');
#164=APPLIED_DATE_AND_TIME_ASSIGNMENT(#165,#163,(#283));
#165=DATE_AND_TIME(#166,#167);
#166=CALENDAR_DATE(2012,18,5);
#167=LOCAL_TIME(0,0,0.,#168);
#168=COORDINATED_UNIVERSAL_TIME_OFFSET(0,0,.BEHIND.);
#169=AXIS2_PLACEMENT_3D('',#235,#189,#190);
#170=AXIS2_PLACEMENT_3D('',#236,#191,#192);
#171=AXIS2_PLACEMENT_3D('',#240,#194,#195);
#172=AXIS2_PLACEMENT_3D('',#241,#196,#197);
#173=AXIS2_PLACEMENT_3D('',#244,#199,#200);
#174=AXIS2_PLACEMENT_3D('',#245,#201,#202);
#175=AXIS2_PLACEMENT_3D('',#247,#203,#204);
#176=AXIS2_PLACEMENT_3D('',#248,#205,#206);
#177=AXIS2_PLACEMENT_3D('',#250,#207,#208);
#178=AXIS2_PLACEMENT_3D('',#252,#210,#211);
#179=AXIS2_PLACEMENT_3D('',#254,#212,#213);
#180=AXIS2_PLACEMENT_3D('',#255,#214,#215);
#181=AXIS2_PLACEMENT_3D('',#257,#216,#217);
#182=AXIS2_PLACEMENT_3D('',#259,#219,#220);
#183=AXIS2_PLACEMENT_3D('',#261,#221,#222);
#184=AXIS2_PLACEMENT_3D('',#262,#223,#224);
#185=AXIS2_PLACEMENT_3D('',#264,#225,#226);
#186=AXIS2_PLACEMENT_3D('',#266,#228,#229);
#187=AXIS2_PLACEMENT_3D('',#268,#230,#231);
#188=AXIS2_PLACEMENT_3D('',#270,#233,#234);
#189=DIRECTION('axis',(0.,0.,1.));
#190=DIRECTION('refdir',(1.,0.,0.));
#191=DIRECTION('center_axis',(0.,1.,0.));
#192=DIRECTION('ref_axis',(1.,0.,0.));
#193=DIRECTION('',(-0.707106781186548,0.707106781186547,-8.65956056235494E-17));
#194=DIRECTION('center_axis',(0.,-1.,0.));
#195=DIRECTION('ref_axis',(1.,0.,0.));
#196=DIRECTION('center_axis',(0.,-1.,0.));
#197=DIRECTION('ref_axis',(1.,0.,0.));
#198=DIRECTION('',(0.,1.,0.));
#199=DIRECTION('center_axis',(0.,-1.,0.));
#200=DIRECTION('ref_axis',(1.,0.,0.));
#201=DIRECTION('center_axis',(6.12323399573677E-17,0.,1.));
#202=DIRECTION('ref_axis',(1.,0.,0.));
#203=DIRECTION('center_axis',(0.,-1.,0.));
#204=DIRECTION('ref_axis',(1.,0.,0.));
#205=DIRECTION('center_axis',(0.,-1.,0.));
#206=DIRECTION('ref_axis',(1.,0.,0.));
#207=DIRECTION('center_axis',(0.,-1.,0.));
#208=DIRECTION('ref_axis',(1.,0.,0.));
#209=DIRECTION('',(0.,1.,0.));
#210=DIRECTION('center_axis',(0.,-1.,0.));
#211=DIRECTION('ref_axis',(0.,0.,-1.));
#212=DIRECTION('center_axis',(0.,-1.,0.));
#213=DIRECTION('ref_axis',(1.,0.,0.));
#214=DIRECTION('center_axis',(0.,-1.,0.));
#215=DIRECTION('ref_axis',(1.,0.,0.));
#216=DIRECTION('center_axis',(0.,-1.,0.));
#217=DIRECTION('ref_axis',(1.,0.,0.));
#218=DIRECTION('',(0.,1.,0.));
#219=DIRECTION('center_axis',(0.,-1.,0.));
#220=DIRECTION('ref_axis',(0.,0.,-1.));
#221=DIRECTION('center_axis',(0.,-1.,0.));
#222=DIRECTION('ref_axis',(1.,0.,0.));
#223=DIRECTION('center_axis',(0.,-1.,0.));
#224=DIRECTION('ref_axis',(1.,0.,0.));
#225=DIRECTION('center_axis',(0.,-1.,0.));
#226=DIRECTION('ref_axis',(1.,0.,0.));
#227=DIRECTION('',(0.,1.,0.));
#228=DIRECTION('center_axis',(0.,1.,0.));
#229=DIRECTION('ref_axis',(1.,0.,0.));
#230=DIRECTION('center_axis',(0.,-1.,0.));
#231=DIRECTION('ref_axis',(1.,0.,0.));
#232=DIRECTION('',(-0.365652372422993,0.930751493440347,-4.47795007488454E-17));
#233=DIRECTION('center_axis',(0.,-1.,0.));
#234=DIRECTION('ref_axis',(0.,0.,-1.));
#235=CARTESIAN_POINT('',(0.,0.,0.));
#236=CARTESIAN_POINT('Origin',(0.,-6.325,0.));
#237=CARTESIAN_POINT('',(0.,-6.9,0.));
#238=CARTESIAN_POINT('',(-1.15,-5.75,-1.40834381901946E-16));
#239=CARTESIAN_POINT('',(-0.575,-6.325,-7.04171909509728E-17));
#240=CARTESIAN_POINT('Origin',(0.,-5.75,0.));
#241=CARTESIAN_POINT('Origin',(0.,-1.25817254175263,0.));
#242=CARTESIAN_POINT('',(-1.15,3.23365491649473,-1.40834381901946E-16));
#243=CARTESIAN_POINT('',(-1.15,-1.25817254175263,-1.40834381901946E-16));
#244=CARTESIAN_POINT('Origin',(0.,3.23365491649473,0.));
#245=CARTESIAN_POINT('Origin',(1.73460090822865E-33,-6.7,0.));
#246=CARTESIAN_POINT('',(-3.1,2.80736556570746,-3.7964050773568E-16));
#247=CARTESIAN_POINT('Origin',(0.,2.80736556570746,0.));
#248=CARTESIAN_POINT('Origin',(0.,1.90368278285373,0.));
#249=CARTESIAN_POINT('',(-3.1,1.,-3.7964050773568E-16));
#250=CARTESIAN_POINT('Origin',(0.,1.,0.));
#251=CARTESIAN_POINT('',(-3.1,1.90368278285373,-3.7964050773568E-16));
#252=CARTESIAN_POINT('Origin',(2.675,1.,0.));
#253=CARTESIAN_POINT('',(-2.25,1.,-2.75545529808155E-16));
#254=CARTESIAN_POINT('Origin',(0.,1.,0.));
#255=CARTESIAN_POINT('Origin',(0.,0.5,0.));
#256=CARTESIAN_POINT('',(-2.25,0.,-2.75545529808155E-16));
#257=CARTESIAN_POINT('Origin',(0.,0.,0.));
#258=CARTESIAN_POINT('',(-2.25,0.5,-2.75545529808155E-16));
#259=CARTESIAN_POINT('Origin',(2.15,1.3164953090834E-16,0.));
#260=CARTESIAN_POINT('',(-2.05,0.,-2.51052593825207E-16));
#261=CARTESIAN_POINT('Origin',(0.,0.,0.));
#262=CARTESIAN_POINT('Origin',(0.,-3.5,0.));
#263=CARTESIAN_POINT('',(-2.05,-7.,-2.51052593825207E-16));
#264=CARTESIAN_POINT('Origin',(0.,-7.,0.));
#265=CARTESIAN_POINT('',(-2.05,-3.5,-2.51052593825207E-16));
#266=CARTESIAN_POINT('Origin',(0.,-7.7,0.));
#267=CARTESIAN_POINT('',(-1.5,-8.4,-1.83697019872103E-16));
#268=CARTESIAN_POINT('Origin',(0.,-8.4,0.));
#269=CARTESIAN_POINT('',(-1.775,-7.7,-2.17374806848655E-16));
#270=CARTESIAN_POINT('Origin',(0.75,-8.4,0.));
#271=UNCERTAINTY_MEASURE_WITH_UNIT(LENGTH_MEASURE(0.01),#275,
'DISTANCE_ACCURACY_VALUE',
'Maximum model space distance between geometric entities at asserted c
onnectivities');
#272=UNCERTAINTY_MEASURE_WITH_UNIT(LENGTH_MEASURE(0.01),#275,
'DISTANCE_ACCURACY_VALUE',
'Maximum model space distance between geometric entities at asserted c
onnectivities');
#273=(
GEOMETRIC_REPRESENTATION_CONTEXT(3)
GLOBAL_UNCERTAINTY_ASSIGNED_CONTEXT((#271))
GLOBAL_UNIT_ASSIGNED_CONTEXT((#275,#277,#278))
REPRESENTATION_CONTEXT('','3D')
);
#274=(
GEOMETRIC_REPRESENTATION_CONTEXT(3)
GLOBAL_UNCERTAINTY_ASSIGNED_CONTEXT((#272))
GLOBAL_UNIT_ASSIGNED_CONTEXT((#275,#277,#278))
REPRESENTATION_CONTEXT('','3D')
);
#275=(
LENGTH_UNIT()
NAMED_UNIT(*)
SI_UNIT(.MILLI.,.METRE.)
);
#276=(
LENGTH_UNIT()
NAMED_UNIT(*)
SI_UNIT(.CENTI.,.METRE.)
);
#277=(
NAMED_UNIT(*)
PLANE_ANGLE_UNIT()
SI_UNIT($,.RADIAN.)
);
#278=(
NAMED_UNIT(*)
SI_UNIT($,.STERADIAN.)
SOLID_ANGLE_UNIT()
);
#279=SHAPE_DEFINITION_REPRESENTATION(#280,#281);
#280=PRODUCT_DEFINITION_SHAPE('',$,#283);
#281=SHAPE_REPRESENTATION('',(#169),#273);
#282=PRODUCT_DEFINITION_CONTEXT('part definition',#287,'design');
#283=PRODUCT_DEFINITION('Blanking Plug','FCR159777 Blanking Plug',#284,
#282);
#284=PRODUCT_DEFINITION_FORMATION('',$,#289);
#285=PRODUCT_RELATED_PRODUCT_CATEGORY('FCR159777 Blanking Plug',
'FCR159777 Blanking Plug',(#289));
#286=APPLICATION_PROTOCOL_DEFINITION('international standard',
'automotive_design',2009,#287);
#287=APPLICATION_CONTEXT(
'Core Data for Automotive Mechanical Design Process');
#288=PRODUCT_CONTEXT('part definition',#287,'mechanical');
#289=PRODUCT('Blanking Plug','FCR159777 Blanking Plug',$,(#288));
#290=PRESENTATION_STYLE_ASSIGNMENT((#292));
#291=PRESENTATION_STYLE_ASSIGNMENT((#293));
#292=SURFACE_STYLE_USAGE(.BOTH.,#298);
#293=SURFACE_STYLE_USAGE(.BOTH.,#299);
#294=SURFACE_STYLE_RENDERING_WITH_PROPERTIES($,#306,(#296));
#295=SURFACE_STYLE_RENDERING_WITH_PROPERTIES($,#307,(#297));
#296=SURFACE_STYLE_TRANSPARENT(0.);
#297=SURFACE_STYLE_TRANSPARENT(0.);
#298=SURFACE_SIDE_STYLE('',(#300,#294));
#299=SURFACE_SIDE_STYLE('',(#301,#295));
#300=SURFACE_STYLE_FILL_AREA(#302);
#301=SURFACE_STYLE_FILL_AREA(#303);
#302=FILL_AREA_STYLE('',(#304));
#303=FILL_AREA_STYLE('',(#305));
#304=FILL_AREA_STYLE_COLOUR('',#306);
#305=FILL_AREA_STYLE_COLOUR('',#307);
#306=COLOUR_RGB('',0.698039215686274,0.,0.);
#307=COLOUR_RGB('',0.,0.,0.);
ENDSEC;
END-ISO-10303-21;
